VdGG - Theme One (tabs)


Theme One (G. Martin)
 

Main riff

e ------------------------------------------------------------------|

b ------------------------------------------------------------------|

g ------------------5----------------------------------5---5-7------|

d -5h7-7--------5h7---7-5-3h--3-------5h7-7--------5h7---7----------|

a --------------------------5---------------------------------------|

e ------------------------------------------------------------------|

 

e ------------------------------------------------------------------|

b ------------------------------------------------------------------|

g -10-9-7-9-5-------7-5-3-5h----------------------------------------|

d ------------7-------------7------------3p2------------------------|

a ----------------------------8-7-5---------(3)/5-------------------|

e ------------------------------------------------------------------|


Bridge 
(Unsure in red)

e ----|----------------------------------------------------------------------------|

b -6--|-6p5h6---5h6h8-5h6p3-3h5p1------------6p5h6------8------8p7-8p7-8p7-8p7-----|

g ----|--------------------------3/5\3p0h2-----------------------------------------|

d ----|----------------------------------------------------------------------------|

a ----|----------------------------------------------------------------------------|

e ----|----------------------------------------------------------------------------|

 

e ---------------------------------------------------------------------------------|

b -6p5h6---5h6h8-5h6p3-3h5p1-------------------------------------------------------|

g --------------------------3/5\3p0h2----------------------------------------------|

d ------------------------------------2--------------------------------------------|

a --------------------------------------0----0-1-2-3-4-5-6-7-8-9-10-11-12-13-14-15-|

e ---------------------------------------------------------------------------------|

 

Outro jam

e -------------------|

b -------------------|

g -------------------|

d -------------------|

a -x-x-5-x7-x3h5-xxx-|

e -------------------|


Musicians:  

Hugh Banton - organs, piano, mellotron, bass pedals, bass guitar, synthesiser
Guy Evans - drums and percussion
David Jackson - saxes, flute, vocals
 
Produced by John Anthony 

1972 Charisma Records Ltd



Russian Peter Hammill / Van der Graaf Generator Page
Sergey Petrushanko hammillru@mail.ru, 1998-2017